Dark-rock


 
AccueilFAQRechercherS'enregistrerMembresGroupesConnexion

Partagez | 
 

 une petite tablature que j'ai fait

Aller en bas 
AuteurMessage
jojoreg
Timide
avatar

Nombre de messages : 23
Localisation : strasbourg
Date d'inscription : 27/10/2005

MessageSujet: une petite tablature que j'ai fait   Sam 10 Déc à 9:56

----->rythme assez rapide<----

intro

--------------------------------------------
--------------------------------------------
--------------------------------------------
--------------------------------------------
-0-0-0-0-6-7-6-7-6-0-0-0-0-6-7-6-7-6-0-0-0-0

couplet

---------------------------------------------
---------------------------------------------
5-5-5-6-6-5-5-5-6-6-5-5-5-6-6-5-5-5----------
3-3-3-4-4-3-3-3-4-4-3-3-3-4-4-3-3-3----------
3-3-3-4-4-3-3-3-4-4-3-3-3-4-4-3-3-3----------

reprise intro

couplet 2

-----------------------------------------------
-----------------------------------------------
-----------------------------------------------
1-1-1-1-1-1-1-1-1-1-1-1-2-2-2-2-2-1-1-1-1-1-1-1
2-2-2-2-2-2-2-2-2-2-2-2-1-1-1-1-1-2-2-2-2-2-2-2

reprise intro

c'est assez facile a faire sauf le premiere coul=plet qui et un petit peu dur
Revenir en haut Aller en bas
Voir le profil de l'utilisateur http://goodcharlotteur.skyblog.com
Amylee4ever
Admin
avatar

Nombre de messages : 190
Localisation : au plus profond de mon coeur
Date d'inscription : 24/10/2005

MessageSujet: Re: une petite tablature que j'ai fait   Sam 10 Déc à 15:29

J'essayerai mais quand je saurais lire une tablature comme ca moi j'arrive pas j'ai honte qui peut m'aider
Embarassed

_________________
Revenir en haut Aller en bas
Voir le profil de l'utilisateur http://sk8boarding01.skyblog.com
jojoreg
Timide
avatar

Nombre de messages : 23
Localisation : strasbourg
Date d'inscription : 27/10/2005

MessageSujet: Re: une petite tablature que j'ai fait   Sam 10 Déc à 15:33

ben en faite c'est pas dure le numero ben c'est la case et la ligne bah la plus vers le bas c'est la plus grave et en faite une tablature c'est le contraire du manche
Revenir en haut Aller en bas
Voir le profil de l'utilisateur http://goodcharlotteur.skyblog.com
Contenu sponsorisé




MessageSujet: Re: une petite tablature que j'ai fait   

Revenir en haut Aller en bas
 
une petite tablature que j'ai fait
Revenir en haut 
Page 1 sur 1
 Sujets similaires
-
» tab en open de sol (blues)
» tablature partition guitare
» Cherche tablature "avec mon harmonica" (chant marin)
» Petite Fleur et un blues lent en D
» La petite nouvelle: Saranayde

Permission de ce forum:Vous ne pouvez pas répondre aux sujets dans ce forum
Dark-rock :: Instrument :: Reprises/compos-
Sauter vers: